Comfortably Numb (End Solo)

(/) Slide Up  (\) Slide Down  (h) Hammer On  (p) Pull Off  (b) Bend (r) Release (v) Vibrato
E|--------------------------------------------
B|--------------------------------------------
G|--7--9--9b11--9b11p7-----7--9--7h9p7-----7--
D|----------------------9---------------9-----
A|--------------------------------------------
E|--------------------------------------------



E|--------------------------------------10----------------------
B|--------10------10--12--12b14r10--12--------------------------
G|--2/11------11------------------------------7--9--9b11r7------
D|----------------------------------------------------------9v--
A|--------------------------------------------------------------
E|--------------------------------------------------------------



E|----------------------------------------------------
B|--10p7-----7----------------------------------------
G|--------9-----9--7---------------------7b8----------
D|--------------------9---------7--7--9-------9p7--9--
A|-------------------------7/9------------------------
E|----------------------------------------------------



E|--7--9--9b10r7------7--------------------7------------------------------------------------
B|----------------10-----10b12r7--------7-----10p7------------------------------------------
G|--------------------------------9b11--------------9--9b11r7--9p7-----7--------------------
D|------------------------------------------------------------------9-----9--7--------------
A|------------------------------------------------------------------------------9--8--7--5--
E|------------------------------------------------------------------------------------------



E|-------------
B|-------------
G|--7--7--7----
D|-------------
A|-------------
E|-------------
http://www.guitartabcreator.com
Guitar Tab Creator is intended to store guitar tab created through the tool. It currently does not support in-line text editing. Any text you place in here will be lost. If you need to comment on your tab, please use the "Tab Notes" section located below.