Song idea hybrid picking

(/) Slide Up  (\) Slide Down  (h) Hammer On  (p) Pull Off  (b) Bend (r) Release (v) Vibrato


E|--------8--------6-----------
B|-----6--------6--------6--9--
G|-----------------------------
D|--6--------6--------6--------
A|-----------------------------
E|-----------------------------



E|--------8--------6-----------------8--------------
B|-----6--------6--------6--9-----------6-----9--6--
G|-----------------------------6-----------6--------
D|--6--------6--------6-----------6-----------------
A|--------------------------------------------------
E|--------------------------------------------------
http://www.guitartabcreator.com
Guitar Tab Creator is intended to store guitar tab created through the tool. It currently does not support in-line text editing. Any text you place in here will be lost. If you need to comment on your tab, please use the "Tab Notes" section located below.