G minor pentatonic

(/) Slide Up  (\) Slide Down  (h) Hammer On  (p) Pull Off  (b) Bend (r) Release (v) Vibrato


E|--------------------------------3--6--
B|--------------------------3--6--------
G|--------------------3--5--------------
D|--------------3--5--------------------
A|--------3--5--------------------------
E|--3--6--------------------------------



E|--------------------------------6--8--
B|--------------------------6--8--------
G|--------------------5--7--------------
D|--------------5--8--------------------
A|--------5--8--------------------------
E|--6--8--------------------------------



E|--------------------------------6--8--10--
B|--------------------------6--8------------
G|-----------------------7------------------
D|----------------8--10---------------------
A|---------8--10----------------------------
E|--8--10-----------------------------------



E|------------------------------------------15--18--
B|----------------------------------15--18----------
G|--------------------------15--17------------------
D|------------------15--17--------------------------
A|----------15--17----------------------------------
E|--15--18------------------------------------------



E|------------------------------------------18--20--
B|----------------------------------18--20----------
G|--------------------------17--19------------------
D|------------------17--20--------------------------
A|----------17--20----------------------------------
E|--18--20------------------------------------------
http://www.guitartabcreator.com
Guitar Tab Creator is intended to store guitar tab created through the tool. It currently does not support in-line text editing. Any text you place in here will be lost. If you need to comment on your tab, please use the "Tab Notes" section located below.