If Only Your Band Was As Big As Your Ego by Latin For Truth

(/) Slide Up  (\) Slide Down  (h) Hammer On  (p) Pull Off  (b) Bend (r) Release (v) Vibrato


E|-----|-----
B|-----|-----
G|-----|-----
D|--0--|--0--
A|--0--|--0--
E|--0--|--0--



E|-----------------------------------------------------------
B|-----------------------------------------------------------
G|-----------------------------------------------------------
D|-----------------------------------------------------------
A|-----------------------------------------------------------
E|--0--0--0--0--5--5--5--5--5--4--4--4--4--9--9--9--7--7--7--



E|-----------------------------------------------
B|-----------------------------------------------
G|-----------------------------------------------
D|-----------------7-----------------------7-----
A|-----5--9--5--9-----4--------5--9--5--9-----4--
E|--0--------------------0--0--------------------



E|-----------------------------------------
B|-----------------------------------------
G|-----------------------------------------
D|--------------7-----------------7--------
A|--5--9--5--9-----4--5--9--5--9-----4--5--
E|-----------------------------------------



E|-----------|-----
B|-----------|-----
G|--7--7--7--|--7--
D|--7--7--7--|--7--
A|--5--5--5--|--5--
E|-----------|-----



E|----------------------|-----------------
B|----------------------|-----------------
G|--7--7--7--7--11--12--|--4--4--4--5--7--
D|--7--7--7--7--11--12--|--4--4--4--5--7--
A|--5--5--5--5--9---10--|--2--2--2--3--5--
E|----------------------|-----------------



E|--------------------------|----------------------------------
B|--------------------------|----------------------------------
G|--7--7--7--7--7--7--7--7--|--11--11--11--11--11--11--11--11--
D|--7--7--7--7--7--7--7--7--|--11--11--11--11--11--11--11--11--
A|--5--5--5--5--5--5--5--5--|--9---9---9---9---9---9---9---9---
E|--------------------------|----------------------------------



E|--------------------------|--------------------------------
B|--------------------------|--------------------------------
G|--9--9--9--9--9--9--9--9--|--12--12--12--12--11--11--9--9--
D|--9--9--9--9--9--9--9--9--|--12--12--12--12--11--11--9--9--
A|--7--7--7--7--7--7--7--7--|--10--10--10--10--9---9---7--7--
E|--------------------------|--------------------------------



E|-------------------------------
B|-------------------------------
G|--7--9--11--12--14--12--11--9--
D|-------------------------------
A|--5--7--9---10--12--10--9---7--
E|-------------------------------



E|-----------|--------------------------------------
B|-----------|--------------------------------------
G|--7--7--7--|--------2--0--------------------------
D|-----------|--3--2--------3--5--3--2--3--2--0--2--
A|--5--5--5--|--------------------------------------
E|-----------|--------------------------------------
http://www.guitartabcreator.com
Guitar Tab Creator is intended to store guitar tab created through the tool. It currently does not support in-line text editing. Any text you place in here will be lost. If you need to comment on your tab, please use the "Tab Notes" section located below.