Fail to Rob at Gunpoint Pre-verse riff/ Chorus riff

(/) Slide Up  (\) Slide Down  (h) Hammer On  (p) Pull Off  (b) Bend (r) Release (v) Vibrato


E|----------------------------------------------------------------------------|---
B|----------------------------------------------------------------------------|---
G|----------------------------------------------------------------------------|---
D|----------------------------------------------7-----------------------------|---
A|-----5-4----0-7-7-7--0-0-0-------5-4------0-7-7-7------0-0-0--------5-4-----|---
E|-0-0-5-4----0-7-7-7--0-0-0---0-0-5-4------0-7-7-7------0-0-0----0-0-5-4-----|---



E|------------------------------------------------------
B|------------------------------------------------------
G|------------------------------------------------------
D|------------------------------------------------------ (x2)
A|-0-7-7-7----0-0-0---9-9-9-9-9-9-9-9---7-7-7-7-7-7-7-7-
E|-0-7-7-7----0-0-0---9-9-9-9-9-9-9-9---7-7-7-7-7-7-7-7-
http://www.guitartabcreator.com
Guitar Tab Creator is intended to store guitar tab created through the tool. It currently does not support in-line text editing. Any text you place in here will be lost. If you need to comment on your tab, please use the "Tab Notes" section located below.