Fail To Rob at Gun Point Intro

(/) Slide Up  (\) Slide Down  (h) Hammer On  (p) Pull Off  (b) Bend (r) Release (v) Vibrato


E|--------------------------------|--------------------------------|--------------------
B|--------------------------------|--------------------------------|--------------------
G|--------------------------------|--------------------------------|--------------------
D|--------------------------------|--------------------------------|--------------------
A|-----------4--5-----------5--7--|-----------7--9-----------5--7--|-----------4--5-----
E|--0--0--0--------0--0--0--------|--0--0--0--------0--0--0--------|--0--0--0-----------



E|-----------------|--------------------------------|--------------------------------|--
B|-----------------|--------------------------------|--------------------------------|--
G|-----------------|--------------------------------|--------------------------------|--
D|-----------------|--------------------------7-----|--------------------------------|--
A|-----------5--7--|-----------7--9--------------9--|-----------4--5-----------5--7--|--
E|--0--0--0--------|--0--0--0--------0--0--0--------|--0--0--0--------0--0--0--------|--



E|-------------------------------------------|-------------------------------|---
B|-------------------------------------------|-------------------------------|---
G|-------------------------------------------|-------------------------------|---
D|-------------------------------------------|-------------------------------|---
A|---------------7---9---------------5---7---|---9---9---9---9---9---9---9---|---
E|---0---0---0-----------0---0---0-----------|---9---9---9---9---9---9---9---|---



E|-------------------------------|---
B|-------------------------------|---
G|-------------------------------|---
D|-------------------------------|--- (x2)
A|---5---5---5---5---5---5---5---|---
E|---5---5---5---5---5---5---5---|---
http://www.guitartabcreator.com
Guitar Tab Creator is intended to store guitar tab created through the tool. It currently does not support in-line text editing. Any text you place in here will be lost. If you need to comment on your tab, please use the "Tab Notes" section located below.