LEGEND OF ENDER


Author: Jake Gannon
PS: In the intro, 1st lead, were the following scale upward is, you can just scale up, dont need to hit them, just go 123456789,etc. Those are just example notes.
(/) Slide Up (\) Slide Down (h) Hammer On (p) Pull Off (b) Bend (r) Release (v) (.) 10-25 Fret Separator (
INTRO(1st Lead)
E|--1--2-------------------------------------------------------------------------------------------
B|---1--2------------------------------------------------------------------------------------------
G|----1--2-----------------------------------------------------------------------------------------
D|-----1--2-----2----------------------------------------------------------------------------------
A|------1--2------1-----1210--------121112111211/123456789.10.11.12.13.14.15.16.17.17.17.17.18---18
E|-------1--2-1-2-1-----------1212-----------------------------------------------------------------

Begginning of the ender
E|-1-2---234-------343321--------------------------------------------------------------------------
B|--1-232------1-2----------2--------------------------------------------------------------------21
G|---------------------------0-0-0-0--4-5/6--7/8---9/10--1------------------------------------323--
D|--------------------------------------------------------232-------------------------23222--------
A|------------------------------------------------------------010---------------234----------------
E|------------------------------------------------------------------010-----1----------------------
Trial up the scale(1st Lead)
E|--123---------------------------12323------------------------------------------------------------
B|--123----------------------------------12321-----------------------------------------------------
G|--123----------------------------------------2321------------------------------------------------
D|------232-----------------------------------------1----------------------------------------------
A|---------232----------------------------------------23------------3-2-3-2-------------3-2-3-2----
E|-------------23221-------------------------------------234-------2-2-2-2-2-2-2-2-2-2-2-2-2-2-2-2-
THIS IS IT SOOO FAR< NEED TO FINISH:
2nd lead Tab
Rest of tab for 1st lead
Just a tad bit hard, aint it? -Jake Gannon
Guitar Tab Creator is intended to store guitar tab created through the tool. It currently does not support in-line text editing. Any text you place in here will be lost. If you need to comment on your tab, please use the "Tab Notes" section located below.