Gates o' Glory

(/) Slide Up  (\) Slide Down  (h) Hammer On  (p) Pull Off  (b) Bend (r) Release (v) Vibrato


E|--12h11--7---12h11--7---------------------12h11--7--12h11--7h9h10----------------------------
B|----------------------12h11--7--12h11--7---------------------------12h11--7--12h11--7--------
G|---------------------------------------------------------------------------------------------
D|---------------------------------------------------------------------------------------------
A|---------------------------------------------------------------------------------------------
E|---------------------------------------------------------------------------------------------

E|--12h11--7---12h11--7---------------------12h11--7--12h11--7h9h10----------------------------
B|----------------------12h11--7--12h11--7---------------------------12h11--7--12h11--7--------
G|---------------------------------------------------------------------------------------------
D|---------------------------------------------------------------------------------------------
A|---------------------------------------------------------------------------------------------
E|---------------------------------------------------------------------------------------------

E|--12h11--7---12h11--7---------------------12h11--7--12h11--7h9h10----------------------------
B|----------------------12h11--7--12h11--7---------------------------12h11--7--12h11--7--------
G|---------------------------------------------------------------------------------------------
D|---------------------------------------------------------------------------------------------
A|---------------------------------------------------------------------------------------------
E|---------------------------------------------------------------------------------------------
repeat 3 times
in between
E|---------------------------------------------------------------------9h10--------------------
B|--------------------------------------------------------------9h10---------------------------
G|--------------------------------------------------------9h10---------------------------------
D|--------------------------------------------------9h10---------------------------------------
A|-----12-----10-----10h11--------5h6-7h8------------------------------------------------------
E|-----10-----8------8h9-----------------------------------------------------------------------

SOLO
E|-17h15p10--12h14p15h16-------------------------------------------------16h17----------------
B|-----------------------14h16------------------------------------14-17--------16h17--12b--r-9-
G|------------------------------14h16-----------------------12-12-14-17------------------------
D|------------------------------------14h16-----------------12-12------------------------------
A|------------------------------------------14h16----------------------------------------------
E|------------------------------------------------14h16----------------------------------------

SOLO 2
E|-------------------------------------------------------15h17b---r-------19h20b~~~~~~r--------
B|-8br-7br-----------------------------------------15h17-------------------------------------3-
G|-------10b-r---10h12p-9--15h17-------------15h17-------------------------------------------0-
D|-------------------------------------15h17-------------------------------------------------0-
A|-------------------------------15h17-------------------------------------------------------2-
E|------------------------------------------------14h16--------------------------------------3-
Guitar Tab Creator is intended to store guitar tab created through the tool. It currently does not support in-line text editing. Any text you place in here will be lost. If you need to comment on your tab, please use the "Tab Notes" section located below.