ARCADIA

                                         ARCADIA tab
AUTHOR:JAKE GANNON
ALBUM: THE ATTEMPT


(/) Slide Up (\) Slide Down (h) Hammer On (p) Pull Off (b) Bend (r) Release (v) Vibrato

INTRO
E|-----------------------------------------------------0-000--0--00---0-000-00---0-000--0--00--0-00
B|-----------------------------------------------------0-000--0--00---0-000-00---0-000--0--00--0-00
G|-----------------------------------------------------0-000--0--00---0-000-00---0-000--0--00--0-00
D|-----------------------------------------------------0-000--0--00---0-000-00---0-000--0--00--0-00
A|-----------------------------------------------------2-222--2--22---3-333-33---8-888--8--88--5-55
E|--2-222--2--22---3-333-33---8-888--8--88--5-555-5----2-222--2--22---3-333-33---8-888--8--88--5-55

Major Strumming 1
E|--00000000000000--1111-22-33-444444444-555555555555555555-------------00-000000--000--000--000000
B|--00000000000000--1111-22-33-444444444-555555555555555555-------------00-000000--000--000--000000
G|--00000000000000---------------------------------------------------------------------------------
D|--00000000000000---------------------------------------------------------------------------------
A|--00000000000000---------------------------------------------------------------------------------
E|--00000000000000---------------------------------------------------------------------------------

Major Strumming 2
E|--00000000000000---------------------------------------------------------------------------------
B|--00000000000000---------------------------------------------------------------------------------
G|--00000000000000---------------------------------------------------------------------------------
D|--00000000000000---------------------------------------------------------------------------------
A|--0000000000000--1111-22-33-444444444-555555555555555555-------------00-000000--000--000--0000000
E|--0000000000000--1111-22-33-444444444-555555555555555555-------------00-000000--000--000--0000000

EXTREMELY HARD Strumming
E|--00000000000000000000000000000000000000000000000000000000000000000000000000000000000000000000000
B|--00000000000000000000000000000000000000000000000000000000000000000000000000000000000000000000000
G|--00000000000000000000000111222333444444444445555566677788889999999999999999999999999999990000000
D|--00000000000000000000000111222333444444444445555566677788889999999999999999999999999999990000000
A|--00000000000000000000000000000000000000000000000000000000000000000000000000000000000000000000000
E|--00000000000000000000000000000000000000000000000000000000000000000000000000000000000000000000000
Guitar Tab Creator is intended to store guitar tab created through the tool. It currently does not support in-line text editing. Any text you place in here will be lost. If you need to comment on your tab, please use the "Tab Notes" section located below.