Reflections

(/) Slide Up  (\) Slide Down  (h) Hammer On  (p) Pull Off  (b) Bend (r) Release (v) Vibrato


E|------------------
B|------------------
G|------------------
D|------------------
A|------------------
E|--2v--6v--7v--4v--



E|---------------------------------------------------------------------|---
B|---------------------------------------------------------------------|---
G|---3-----------3---7-----------7---8-----------8---5-----------5---3-|---
D|-------4---------------8---------------9---------------6-------------|---
A|-----------4---------------8---------------9---------------6---------|---
E|-2---2---2---2---2---6---6---6---6---7---7---7---7---4---4---4---4---|---



E|---
B|---
G|---
D|---
A|---
E|---



E|----------------------------
B|----------------------------
G|----------------------------
D|-2---2-4----4--2-2-2-6----6-
A|-2---2-4----4--2-2-2-6----6-
E|-0---0-2----2--0-0-0-4----4-



E|---------------|---------------
B|---------------|---------------
G|---------------|---------------
D|-6-------------|-5-------------
A|-6-4h6-7-6-----|-5-3h5-6-5-----
E|-4---------7-6-|-3---------6-5-
http://www.guitartabcreator.com
Guitar Tab Creator is intended to store guitar tab created through the tool. It currently does not support in-line text editing. Any text you place in here will be lost. If you need to comment on your tab, please use the "Tab Notes" section located below.