Diabetic Unicorn Apocalipse

(/) Slide Up  (\) Slide Down  (h) Hammer On  (p) Pull Off  (b) Bend (r) Release (v) Vibrato


E|----------17----------------17----------------16-15-------------15-------
B|-------18----18-17-------18----18-17-------17-------16-------17----16-15-
G|----20----------------20----------------16----------------16-------------
D|-17----------------17----------------15----------------15----------------
A|-------------------------------------------------------------------------
E|-------------------------------------------------------------------------



E|----------14-13-------------14-13------------------------------------|---
B|-------14-------14-------14-------14---------------------------------|---
G|----13----------------13----------------10-9-12-10-9----10-9-12-10-9-|---
D|-15----------------15----------------12--------------12--------------|---
A|---------------------------------------------------------------------|---
E|---------------------------------------------------------------------|---



E|----------------------|---
B|----------------------|---
G|-----------5---7/10-9-|---
D|-------7--------------|---
A|-0-0-0---0---0--------|---
E|----------------------|---



E|----
B|----
G|-14-
D|----
A|----
E|----
http://www.guitartabcreator.com
Guitar Tab Creator is intended to store guitar tab created through the tool. It currently does not support in-line text editing. Any text you place in here will be lost. If you need to comment on your tab, please use the "Tab Notes" section located below.