A Minor

(/) Slide Up  (\) Slide Down  (h) Hammer On  (p) Pull Off  (b) Bend (r) Release (v) Vibrato


E|-----------------------------------------------0--1--3-----
B|--------------------------------------0--1--3--------------
G|-----------------------------0--2--4-----------------------
D|--------------------0--2--3--------------------------------
A|-----------0--2--3-----------------------------------------
E|--0--1--3--------------------------------------------------



E|-----------------------------------------------5--7--8------------------------------
B|--------------------------------------5--6--8---------------------------------------
G|-----------------------------5--7--9------------------------------------------------
D|--------------------5--7--9---------------------------------------------------------
A|-----------5--7--8------------------------------------------------------------------
E|--5--7--8---------------------------------------------------------------------------



E|--------------------------------------------------------------10--12--13--
B|--------------------------------------------------10--12--13--------------
G|--------------------------------------10--12--14--------------------------
D|--------------------------10--12--14--------------------------------------
A|--------------10--12--14--------------------------------------------------
E|--10--12--13--------------------------------------------------------------



E|------------------------------------------------------17--19--20--
B|------------------------------------------17--20--18--------------
G|------------------------------17--19--21--------------------------
D|----------------------17--19--------------------------------------
A|--------------17--19----------------------------------------------
E|--17--19--20------------------------------------------------------
http://www.guitartabcreator.com
Guitar Tab Creator is intended to store guitar tab created through the tool. It currently does not support in-line text editing. Any text you place in here will be lost. If you need to comment on your tab, please use the "Tab Notes" section located below.