YM@6 - Loverboy

Drop D tuning


da da da etc. x4

Intro/Verse 1
|-------------------------|
|-------------------------|
|-------------------------| x12 (2nd & 4th time playing only up to “3/5”)
|-----0h3--2p0---------0--|
|--0h3----------3/5----0--|
|--------------------0-0--|

Chorus
|--1-1-1-1-----0-0-0-0-----1-1-1-1-1-1-1-1-|
|--1-1-1-1-----1-1-1-1-----3-3-3-3-3-3-3-3-|
|--3-3-3-3-----0-0-0-0-----2-2-2-2-2-2-2-2-|
|--3-3-3-3-----2-2-2-2-----0-0-0-0-0-0-0-0-|
|--1-1-1-1-----3-3-3-3---------------------|
|------------------------------------------|
x1 (last chord only strummed 5 times)
|--1-1-1-1-----1-1-1-1-----3-3-3-3-3-3-3-3-|
|--1-1-1-1-----3-3-3-3-----1-1-1-1-1-1-1-1-|
|--3-3-3-3-----2-2-2-2-----0-0-0-0-0-0-0-0-|
|--3-3-3-3-----0-0-0-0-----2-2-2-2-2-2-2-2-|
|--1-1-1-1-----------------3-3-3-3-3-3-3-3-|
|------------------------------------------|

Verse 2
|-------------------------|
|-------------------------|
|-------------------------| x5
|-----0h3--2p0---------0--|
|--0h3----------3/5----0--|
|--------------------0-0--|

Chorus
|--1-1-1-1-----0-0-0-0-----1-1-1-1-1-1-1-1-|
|--1-1-1-1-----1-1-1-1-----3-3-3-3-3-3-3-3-|
|--3-3-3-3-----0-0-0-0-----2-2-2-2-2-2-2-2-|
|--3-3-3-3-----2-2-2-2-----0-0-0-0-0-0-0-0-|
|--1-1-1-1-----3-3-3-3---------------------|
|------------------------------------------|
x2
|--1-1-1-1-----1-1-1-1-----3-3-3-3-3-3-3-3-|
|--1-1-1-1-----3-3-3-3-----1-1-1-1-1-1-1-1-|
|--3-3-3-3-----2-2-2-2-----0-0-0-0-0-0-0-0-|
|--3-3-3-3-----0-0-0-0-----2-2-2-2-2-2-2-2-|
|--1-1-1-1-----------------3-3-3-3-3-3-3-3-|
|------------------------------------------|

Bridge
|------------------------------------------------------------------------|
|------------------------------------------------------------------------|
|--7-7-7-7-7-7-7---5-5-5-5-5-5-5----10-10-10-10-10-10-10---5-5-5-5-5-5-5-|
|--7-7-7-7-7-7-7---5-5-5-5-5-5-5----8--8--8--8--8--8--8----3-3-3-3-3-3-3-| x4
|--5-5-5-5-5-5-5---3-3-3-3-3-3-3----8--8--8--8--8--8--8----3-3-3-3-3-3-3-|
|-----------------------------------8--8--8--8--8--8--8----3-3-3-3-3-3-3-|

Solo is played over second half of bridge, but i haven't worked it out yet.

da da da etc. x4

Chorus
|--1-1-1-1-----0-0-0-0-----1-1-1-1-1-1-1-1-|
|--1-1-1-1-----1-1-1-1-----3-3-3-3-3-3-3-3-|
|--3-3-3-3-----0-0-0-0-----2-2-2-2-2-2-2-2-|
|--3-3-3-3-----2-2-2-2-----0-0-0-0-0-0-0-0-|
|--1-1-1-1-----3-3-3-3---------------------|
|------------------------------------------|
x2 (last chord only strummed 5 times)
|--1-1-1-1-----1-1-1-1-----3-3-3-3-3-3-3-3-|
|--1-1-1-1-----3-3-3-3-----1-1-1-1-1-1-1-1-|
|--3-3-3-3-----2-2-2-2-----0-0-0-0-0-0-0-0-|
|--3-3-3-3-----0-0-0-0-----2-2-2-2-2-2-2-2-|
|--1-1-1-1-----------------3-3-3-3-3-3-3-3-|
|------------------------------------------|

Ending
|-------------------------|
|-------------------------|
|-------------------------| x1
|-----0h3--2p0---------0--|
|--0h3----------3/5----0--|
|-------------------------|
Guitar Tab Creator is intended to store guitar tab created through the tool. It currently does not support in-line text editing. Any text you place in here will be lost. If you need to comment on your tab, please use the "Tab Notes" section located below.