Wish Liszt (bass tab, tabbed on guitar) part 1 - ends at measure 85 of 222

(/) Slide Up  (\) Slide Down  (h) Hammer On  (p) Pull Off  (b) Bend (r) Release (v) Vibrato
E|--------------------------------------------------------------------------------------------------
B|--------------------------------------------------------------------------------------------------
G|--------------------------------------------------------0--0--------0--0--------0--0--------0--0--
D|--0--0--------0--0--------0--0--------0--0--------0--0--------0--0--------0--0--------0--0--------
A|--------------------------------------------------------------------------------------------------
E|--------3--3--------3--3--------3--3--------3--3--------------------------------------------------



E|-----------------------------------------------------------------------------------------------
B|-----------------------------------------------------------------------------------------------
G|-----------------------------------------------------------------------------------------0--0--
D|--0-----4--0--0--0--0-----0--0--0--0-----4--0--0--0-----0--0--0--0-----4--4-----0--0-----------
A|-----3-----------------1--------------3--------------1--------------3--------3--------1--------
E|-----------------------------------------------------------------------------------------------



E|--------------------------------------------------------------------------------------------------
B|--------------------------------------------------------------------------------------------------
G|--------------------------------0--0-----------------------------0--------------------------------
D|-----0--0-----4--4-----0--0--------------0-----4--0--0--0--0--------0--0--0--0-----4--0--0--0--0--
A|--1--------3--------3--------1--------1-----0-----------------------------------0-----------------
E|--------------------------------------------------------------3-----------------------------------



E|--------------------------------------------------------------------------------------------
B|--------------------------------------------------------------------------------------------
G|-----0-----------------------------0-----0--------------------------------------------------
D|--------0--0--0--0-----4--0--4-----------------0-----0-----0-----0-----0-----0-----0-----0--
A|--------------------0-----------------------0-----0-----------------0-----0-----------------
E|--3-----------------------------3-----3-----------------3-----3-----------------3-----3-----
http://www.guitartabcreator.com
Guitar Tab Creator is intended to store guitar tab created through the tool. It currently does not support in-line text editing. Any text you place in here will be lost. If you need to comment on your tab, please use the "Tab Notes" section located below.