meh

(/) Slide Up  (\) Slide Down  (h) Hammer On  (p) Pull Off  (b) Bend (r) Release (v) Vibrato


E|------------------------------------
B|------------------------------------
G|--17v--17--15--15v--17/18--18--17v--
D|------------------------------------
A|------------------------------------
E|------------------------------------



E|-----------------------------------
B|-------------------------------18--
G|--17v--17--15--15v--17/18--18------
D|-----------------------------------
A|-----------------------------------
E|-----------------------------------



E|--------------------------------------
B|--------------------------------------
G|--------------------------------------
D|--------------------5--5--5--4--4--4--
A|--4--4--4--5--5--5--3--3--3--2--2--2--
E|--2--2--2--3--3--3--------------------



E|--
B|--
G|--
D|--
A|--
E|--
http://www.guitartabcreator.com
Guitar Tab Creator is intended to store guitar tab created through the tool. It currently does not support in-line text editing. Any text you place in here will be lost. If you need to comment on your tab, please use the "Tab Notes" section located below.