<insert title here>

(/) Slide Up  (\) Slide Down  (h) Hammer On  (p) Pull Off  (b) Bend (r) Release (v) Vibrato
E|-------------------------------
B|-------------------------------
G|-------------------------------
D|-------------------------------
A|-----------5b6--4--3-----------
E|--0--0--0-------------5--4--3--



E|----------------------------------
B|----------------------------------
G|----------------------------------
D|----------------------------------
A|-----------5b6--4--3--------------
E|--0--0--0-------------5--4--3--0--



E|-----------------------
B|-----------------------
G|-----------------------
D|-----------------------
A|-----------------------
E|-0-0-0-0-3--0-0-5--0-6-



E|-----------------------
B|-----------------------
G|-----------------------
D|-----------------------
A|-----------------------
E|-0-0-0-0-3-0-5-0-6-5-6-



E|-------------------------------
B|-------------------------------
G|-5---------7---------9-9-9-9-9-
D|-5---------7---------9-9-9-9-9-
A|-3-3-3-3-3-5-5-5-5-5-7-7-7-7-7-
E|-------------------------------



E|-----------------------------------------------
B|-----------------------------------------------
G|-----------------------------------------------
D|-5-------6-------7-------8-------9-10-11-12-13-
A|-5-------6-------7-------8-------9-10-11-12-13-
E|---0-0-0---0-0-0---0-0-0---0-0-0---------------



E|-------------------------------------------
B|-------------------------------------------
G|-------------------------------------------
D|-------------------------------15h16-15h17-
A|----------------------15h16h18-------------
E|-15v-15v-15v-15h16h18----------------------



E|-------------------------------------------------------
B|-------------------------------------------------16b18-
G|-------------------------------15h16h17-15h16h17-------
D|-15h16-15h17-15h16h17-15h16h17-------------------------
A|-------------------------------------------------------
E|-------------------------------------------------------



E|-----------------------------------------------------------------------------------
B|--16h17--16h18--16h17--16h18-------------------------------------------------------
G|------------------------------17--15--14-------------------------------------------
D|------------------------------------------15h16h16h16--16h17h17h17-----------------
A|--------------------------------------------------------------------17-------------
E|------------------------------------------------------------------------16--15b17--
http://www.guitartabcreator.com
Guitar Tab Creator is intended to store guitar tab created through the tool. It currently does not support in-line text editing. Any text you place in here will be lost. If you need to comment on your tab, please use the "Tab Notes" section located below.