first song

(/) Slide Up  (\) Slide Down  (h) Hammer On  (p) Pull Off  (b) Bend (r) Release (v) Vibrato


E|---------------------------------------------------------------------------
B|---------------------------------------------------------------------------
G|---------------------------------------------------------------------------
D|---------------------------------------------------------------------------
A|-----------------5b6--4--3-----------------------------5b6--4--3-----------
E|--0--0--0--0--0-------------5--4--3--0--0--0--0--0--0-------------5--4--3--



E|-----------------------------
B|-----------------------------
G|-----------------------------
D|-----------------------------
A|-----------------------------
E|-0-0-0-0-0-3-0-0-0-0-5-0-0-6-



E|---------------------------------
B|---------------------------------
G|---------------------------------
D|---------------------------------
A|---------------------------------
E|-0-0-0-0-0-3-0-0-0-0-5-0-0-6-5-6-



E|-----------
B|-----------
G|-5---------
D|-5---------
A|-3-3-3-3-3-
E|-----------



E|---------
B|---------
G|-5-------
D|-5-------
A|-3-3-3-3-
E|---------
http://www.guitartabcreator.com
Guitar Tab Creator is intended to store guitar tab created through the tool. It currently does not support in-line text editing. Any text you place in here will be lost. If you need to comment on your tab, please use the "Tab Notes" section located below.