song no 1

(/) Slide Up  (\) Slide Down  (h) Hammer On  (p) Pull Off  (b) Bend (r) Release (v) Vibrato


E|-----------------------------------------------------------------------------
B|-----------------------------------------------------------------------------
G|-----------------------------------------------------------------------------
D|-----------------------------------------------------------------------------
A|------------------------5----7--8--------8--8--8--7--7--7--5--5--5-----------
E|--5--------5--7----8------------------------------------------------8--8--8--



E|--15b--15b12-------------------------------------
B|--------------15b--15b12-------------------------
G|--------------------------14b--14--12h14p12------
D|---------------------------------------------14--
A|-------------------------------------------------
E|-------------------------------------------------



E|----------------------------------------------------------------------------------
B|----------------------------------------------------------------------------------
G|----------------------------------------------------------------------------------
D|----------5h7p5-----7----5-------------------------5h7p5-----7----5---------------
A|--5----7---------7------------7----5------------7---------7------------7----5-----
E|----------------------------------------8----5---------------------------------8--



E|-----------------------------------------------------------------------------------------------
B|-----------------------------------------------------------------------------------------------
G|-----------------------------------------------------------------------------------------------
D|-----------------------------------------------------------------------------------------------
A|--7----7--7----------5----5--5----4----4--4----------------------------------------------------
E|--5----5--5----------3----3--3----2----2--2----0--0--0--0--0--0--0--0--0--0--0--0--0--0--0--0--
http://www.guitartabcreator.com
Guitar Tab Creator is intended to store guitar tab created through the tool. It currently does not support in-line text editing. Any text you place in here will be lost. If you need to comment on your tab, please use the "Tab Notes" section located below.