acoustic song no 1

(/) Slide Up  (\) Slide Down  (h) Hammer On  (p) Pull Off  (b) Bend (r) Release (v) Vibrato

E|--3--2----0--3--2----0--3--2----0--3--2----------------------------------------------
B|--3--3----3--3--3----3--3--3----3--3--3----1--3--1----0--3--1----0--3--1----0--3--1--
G|--2--2----2--2--2----2--2--2----2--2--2----2--2--2----2--2--2----2--2--2----2--2--2--
D|-------------------------------------------2--2--2----2--2--2----2--2--2----2--2--2--
A|-------------------------------------------------------------------------------------
E|-------------------------------------------------------------------------------------



E|--0----------------3--
B|--1----------------0--
G|--0----------------0--
D|--2----------------0--
A|--3----------------2--
E|-------------------3--



E|--3----2------0------0h2p0-----
B|----------------------------3--
G|-------------------------------
D|-------------------------------
A|-------------------------------
E|-------------------------------
http://www.guitartabcreator.com
Guitar Tab Creator is intended to store guitar tab created through the tool. It currently does not support in-line text editing. Any text you place in here will be lost. If you need to comment on your tab, please use the "Tab Notes" section located below.