Blues ideas in E

(/) Slide Up  (\) Slide Down  (h) Hammer On  (p) Pull Off  (b) Bend (r) Release (v) Vibrato


E|--------------------------------------------------------10--12--
B|-----------------------------------------8--10--11--12----------
G|-----------------------------------7--9-------------------------
D|-----------------------5--7--8--9-------------------------------
A|-----------------5--7-------------------------------------------
E|--0--3--5--6--7-------------------------------------------------



E|--15--12------------------------------------------
B|----------15--12----------------------------------
G|------------------14--12--------------------------
D|--------------------------14--12------------------
A|----------------------------------14--12----------
E|------------------------------------------15--12--
http://www.guitartabcreator.com
Guitar Tab Creator is intended to store guitar tab created through the tool. It currently does not support in-line text editing. Any text you place in here will be lost. If you need to comment on your tab, please use the "Tab Notes" section located below.