Wasting time acoustic

(/) Slide Up  (\) Slide Down  (h) Hammer On  (p) Pull Off  (b) Bend (r) Release (v) Vibrato
E|--3--2--0--------------0-------------------0--2--3--5--7--7--5--3--2--3--0----------------
B|-----------3--2--3--3-----3h5p3p2h3--5--3-----------------------------------3--3h5p3p2h3--
G|------------------------------------------------------------------------------------------
D|------------------------------------------------------------------------------------------
A|------------------------------------------------------------------------------------------
E|------------------------------------------------------------------------------------------



E|-------------|--7--7--5--7--5--4--4h5p4p2h4--5--7--0--7--0--0--2--2--4--4--5--5--7--4--0-----
B|--5--3--3/5--|-------------------------------------------------------------------------------
G|-------------|-------------------------------------------------------------------------------
D|-------------|-------------------------------------------------------------------------------
A|-------------|-------------------------------------------------------------------------------
E|-------------|-------------------------------------------------------------------------------



E|-----0-----------------------4--2--4--5--7--12--12--11--12--11--9--9\7\4--2--0-----0--2--4--5--
B|--4-----2--0-----0--2--4--5-----------------------------------------------------4--------------
G|--------------2--------------------------------------------------------------------------------
D|-----------------------------------------------------------------------------------------------
A|-----------------------------------------------------------------------------------------------
E|-----------------------------------------------------------------------------------------------



E|-5\7-7-7-5-7-5-4-4h5p4p2h4-5-7-0-0-0-7-0-0-0-7-0-
B|-----5-------------------------------------------
G|-------------------------------------------------
D|-------------------------------------------------
A|-------------------------------------------------
E|-------------------------------------------------
http://www.guitartabcreator.com
Guitar Tab Creator is intended to store guitar tab created through the tool. It currently does not support in-line text editing. Any text you place in here will be lost. If you need to comment on your tab, please use the "Tab Notes" section located below.