wasing time

(/) Slide Up  (\) Slide Down  (h) Hammer On  (p) Pull Off  (b) Bend (r) Release (v) Vibrato
E|----------------|----------------|--------------------------
B|----------------|-10-------------|------10------------------
G|-9b11-7---7-----|-11-7---7-------|-9b11----11r9-7-----------
D|--------9---9-9-|-9----9---9-7h9-|----------------9-7h8h9---
A|----------------|----------------|--------------------------
E|----------------|----------------|--------------------------



E|------------------------------
B|--------10--------------------
G|--9b11------11--11--11--11r9--
D|------------------------------
A|------------------------------
E|------------------------------



E|---------------|------------------------------------|--12b14r12--10-------------------------------------------
B|---------------|---------10--12--12b15--12--10--12--|----------------12--12--12--10---------------------------
G|-------7h9/11--|--9--11-----------------------------|--------------------------------11--9\7--9--7------------
D|--7h9----------|------------------------------------|-----------------------------------------------9--7h8h9--
A|---------------|------------------------------------|---------------------------------------------------------
E|---------------|------------------------------------|---------------------------------------------------------



E|---------17--17------------------------17--17---------
B|--17b19----------19r17--15--17--17b19----------19r17--
G|------------------------------------------------------
D|------------------------------------------------------
A|------------------------------------------------------
E|------------------------------------------------------
http://www.guitartabcreator.com
Guitar Tab Creator is intended to store guitar tab created through the tool. It currently does not support in-line text editing. Any text you place in here will be lost. If you need to comment on your tab, please use the "Tab Notes" section located below.