ShowingSignsbass

(/) Slide Up  (\) Slide Down  (h) Hammer On  (p) Pull Off  (b) Bend (r) Release (v) Vibrato

E|---------------------------------
B|---------------------------------
G|---------------------------------
D|-----7-----7-----7-----7---------
A|--5-----5-----5-----5------------
E|---------------------------------



E|---------------------------------
B|---------------------------------
G|---------------------------------
D|-----10-----10-----10-----10-----
A|--8------8------8------8---------
E|---------------------------------



E|--------------------------
B|--------------------------
G|--------------------------
D|--------------------------
A|-----7-----7-----7-----7--
E|--5-----5-----5-----5-----



E|-----------------------------
B|-----------------------------
G|-----------------------------
D|--------7-----7-----7-----7--
A|--6--5-----5-----5-----5-----
E|-----------------------------



E|--
B|--
G|--
D|--
A|--
E|--



E|--
B|--
G|--
D|--
A|--
E|--



E|--
B|--
G|--
D|--
A|--
E|--



E|--
B|--
G|--
D|--
A|--
E|--
http://www.guitartabcreator.com
Guitar Tab Creator is intended to store guitar tab created through the tool. It currently does not support in-line text editing. Any text you place in here will be lost. If you need to comment on your tab, please use the "Tab Notes" section located below.