brokenconnectionbass

(/) Slide Up  (\) Slide Down  (h) Hammer On  (p) Pull Off  (b) Bend (r) Release (v) Vibrato
E|--------------------------------------------------------------------
B|--------------------------------------------------------------------
G|--------------------------------------------------------------------
D|-----------1-----------------1--------------------------------1--0--
A|--3--3--3-----3--3-----------------------------1--0--0--1--1--------
E|--------------------4--4--4-----4--4--1--1--1-----------------------



E|-------------------------------------------------------------------------------------
B|-------------------------------------------------------------------------------------
G|-------------------------------------------------------------------------------------
D|-------------------------1-----------------1-----------------3-----------------1--0--
A|----------------3--3--3-----3--3--------------3--3--4--4--4-----4--4--1--1--1--------
E|----------------------------------4--4--4--------------------------------------------



E|--------------------------------------------------------------------------------------------------------------
B|--------------------------------------------------------------------------------------------------------------
G|--------------------------------------------------------------------------------------------------------------
D|--------------------------------------------------------8--------8-----8--------------------------------------
A|--------6--------6-----6--------6--------6-----6--6--6-----6--6-----6-----------8--------8-----8--------3-----
E|--4--4-----4--4-----4-----4--4-----4--4-----4-----------------------------6--6-----6--6-----6-----1--1-----1--



E|--
B|--
G|--
D|--
A|--
E|--



E|--
B|--
G|--
D|--
A|--
E|--



E|--
B|--
G|--
D|--
A|--
E|--



E|--
B|--
G|--
D|--
A|--
E|--



E|--
B|--
G|--
D|--
A|--
E|--



E|--
B|--
G|--
D|--
A|--
E|--



E|--
B|--
G|--
D|--
A|--
E|--



E|-----------------------------------------------------------------------------------------------------------------
B|-----------------------------------------------------------------------------------------------------------------
G|-----------------------------------------------------------------------------------------------------------------
D|--------------------1-----1-----1-----1-----------------------------------------------------7-----7-----7-----7--
A|--------3-----3--3-----3-----3-----3--------3-----3-----3-----3-----5-----5-----5-----5--8-----8-----8-----8-----
E|--1--1-----1-----------------------------4-----4-----4-----4-----6-----6-----6-----6-----------------------------
http://www.guitartabcreator.com
Guitar Tab Creator is intended to store guitar tab created through the tool. It currently does not support in-line text editing. Any text you place in here will be lost. If you need to comment on your tab, please use the "Tab Notes" section located below.