solo1

(/) Slide Up  (\) Slide Down  (h) Hammer On  (p) Pull Off  (b) Bend (r) Release (v) Vibrato


E|--------------------------------------------------
B|--------------------------------------------------
G|--0--------2/4--2--0-----2/4--2--0----------------
D|--0-----0-------------2-------------0--2p0--------
A|-----2--------------------------------------0--2--
E|--3-----------------------------------------------



E|--------------------------------------------------------------3--
B|------------------------------------3p0-----------------------0--
G|--0--------2/4--2--0-----2/4--2--0-------2/4--2--0------------0--
D|--0-----0-------------2-----------------------------2p0-------0--
A|-----2---------------------------------------------------2p0--2--
E|--3-----------------------------------------------------------3--
http://www.guitartabcreator.com
Guitar Tab Creator is intended to store guitar tab created through the tool. It currently does not support in-line text editing. Any text you place in here will be lost. If you need to comment on your tab, please use the "Tab Notes" section located below.