solo one

(/) Slide Up  (\) Slide Down  (h) Hammer On  (p) Pull Off  (b) Bend (r) Release (v) Vibrato


E|--10--8-----------------------------------------------------------------------------
B|---------10--8----------------------------------------------------------------------
G|----------------10--7---------------------------------------------------------------
D|-----------------------10--7--------------------------------------------------------
A|------------------------------10--8-------------------------------------------------
E|-------------------------------------10--8--10b13r10--10h12h13--12h13h15--13h15h17--



E|-----------------------------------------------------------------------------------
B|---------------------------------------------------------------------------15------
G|-----------------------------------------------------14------14h17--14h17------17--
D|-------------------------------15------15h17--15h17------17------------------------
A|---------15------15h17--15h17------17----------------------------------------------
E|--15h17------17--------------------------------------------------------------------



E|----------------15------15h17--15h17--20--21b21--
B|--15h18--15h18------18---------------------------
G|-------------------------------------------------
D|-------------------------------------------------
A|-------------------------------------------------
E|-------------------------------------------------
http://www.guitartabcreator.com
Guitar Tab Creator is intended to store guitar tab created through the tool. It currently does not support in-line text editing. Any text you place in here will be lost. If you need to comment on your tab, please use the "Tab Notes" section located below.