Composition 1

(/) Slide Up  (\) Slide Down  (h) Hammer On  (p) Pull Off  (b) Bend (r) Release (v) Vibrato
E|------------------------------------------------------------------------------------
B|--1-----------1--------------0-----------0-------------------------0-------------3--
G|--------0--------0-----0-----------2--------2-----2-------------0-------------0-----
D|-----2--------------2-----2-----2--------------2-----2-----0p2-----------0p2--------
A|--3--------3-----------------0--------0-----------------3-------------3-------------
E|------------------------------------------------------------------------------------



E|---------------------------------------------------------------------------
B|-------------0-------------3-----------------------------------------------
G|----------0-------------0-----0-----------0--------0-----------0-----------
D|-----0p2-----------0p2--------------0-----------0--------0-----------0-----
A|--3-------------3----------------2-----------2--------2-----------2--------
E|------------------------------3--------3-----------3--------3--------------



E|--------------------------------------------------------------------------------------
B|--------------------------------------------------------------------------------------
G|--0-----------0--------0-----------0--------0-----------0--------0-----------0--------
D|--------2-----------2--------0-----------0--------2-----------2--------2-----------2--
A|-----2-----------2--------2-----------2-----3--3-----3-----3-----3--3-----3-----3-----
E|--0--------0-----------3--------3-----------------------------------------------------



E|--------------------------------------------------------------------------------------
B|-----------------------------------------------------------------0--------------------
G|--0-----------0--------0-----------0--------0-----------0--------------------0--------
D|--------2-----------2--------0-----------0--------2-----------2--------2-----------2--
A|-----2-----------2--------2-----------2-----3--3-----3-----3-----3--3-----3-----3-----
E|--0--------0-----------3--------3-----------------------------------------------------



E|------------------------------------------------------------------------------------
B|--1-----------1--------------0-----------0-------------------------0-------------3--
G|--------0--------0-----0-----------2--------2-----2-------------0-------------0-----
D|-----2--------------2-----2-----2--------------2-----2-----0p2-----------0p2--------
A|--3--------3-----------------0--------0-----------------3-------------3-------------
E|------------------------------------------------------------------------------------



E|---------------------------------------------------------------------------------------------
B|-------------0-------------3--------------------------------------------3-----------3--------
G|----------0-------------0-----0-----------0--------0-----------0--------------0-----------0--
D|-----0p2-----------0p2--------------0-----------0--------0-----------0-----2-----------2-----
A|--3-------------3----------------2-----------2--------2-----------2-----3--------3-----------
E|------------------------------3--------3-----------3--------3--------------------------------



E|-----------------------------------------------------------------
B|--5-----------5--------7-----------7--------7-----------7--------
G|--------0-----------0--------0-----------0--------0-----------0--
D|-----4-----------4--------5-----------5--------5-----------5-----
A|--5--------5-----------7--------7-----------7--------7-----------
E|-----------------------------------------------------------------



E|-----------------------------------------------------------------
B|--3-----------3--------5-----------5--------7--5--3--------------
G|--------0-----------0--------0-----------0-----------------------
D|-----2-----------2--------4-----------4--------------------------
A|--3--------3-----------5--------5-----------7--5--3--------------
E|-----------------------------------------------------------------



E|--------------------------------------------------------------------------------------
B|--------------------------------------------------------------------------------------
G|--0-----------0--------0-----------0--------0-----------0--------0-----------0--------
D|--------2-----------2--------0-----------0--------2-----------2--------2-----------2--
A|-----2-----------2--------2-----------2-----3--3-----3-----3-----3--3-----3-----3-----
E|--0--------0-----------3--------3-----------------------------------------------------



E|--------------------------------------------------------------------------------------
B|-----------------------------------------------------------------0--------------------
G|--0-----------0--------0-----------0--------0-----------0--------------------0--------
D|--------2-----------2--------0-----------0--------2-----------2--------2-----------2--
A|-----2-----------2--------2-----------2-----3--3-----3-----3-----3--3-----3-----3-----
E|--0--------0-----------3--------3-----------------------------------------------------



E|--------------------------------------------------------------------------------------------------
B|--1-----------1--------3-----------3--------5-----------5-------------------------7/8-------------
G|--------0-----------0--------0-----------0--------0-----------0-----------------------------------
D|-----2-----------2--------2-----------2--------4-----------4--------0--4/5-----5-------------5\4--
A|--3--------3-----------3--------3-----------5--------5-----------5----------7-------------7-------
E|---------------------------------------------------------------------------------------0----------



E|-----------------------------------------------------------------------------------------------
B|--------5--------3-----------------------------------------------------------------------------
G|--------------------0-----------0--------0-----------0--------0-----------0--------0-----------
D|-----4--------2-----------2-----------2--------0-----------0--------2-----------2--------2-----
A|--5--------3-----------2-----------2--------2-----------2-----3--3-----3-----3-----3--3--------
E|--------------------0--------0-----------3--------3--------------------------------------------



E|--------------------------------------------------------------------------------------------------
B|-----------------------------------------------------------------------------0--------------------
G|-----0--------0-----------0--------0-----------0--------0-----------0--------------------0--------
D|-----------2--------2-----------2--------0-----------0--------2-----------2--------2-----------2--
A|--3-----3--------2-----------2--------2-----------2-----3--3-----3-----3-----3--3-----3-----3-----
E|--------------0--------0-----------3--------3-----------------------------------------------------



E|--------------------------------------------------------------------------------------------
B|-----------------------3-----3-----------------------3-----3-----------------------3-----3--
G|-----------------------0-----0-----------------------0-----0-----------------------0-----0--
D|--------------------------------------------------------------------------------------------
A|--3--3--3--3--3--3--3-----3-----3--3--3--3--3--3--3-----3-----------------------------------
E|--------------------------------------------------------------3--3--3--3--3--3--3-----3-----



E|--------------------------------------------------------------------------------------------
B|-----------------------3-----3-----------------------3-----3-----------------------3-----3--
G|-----------------------0-----0-----------------------0-----0-----------------------0-----0--
D|--------------------------------------------------------------------------------------------
A|--------------------------------3--3--3--3--3--3--3-----3-----3--3--3--3--3--3--3-----3-----
E|--3--3--3--3--3--3--3-----3-----------------------------------------------------------------



E|-----------------------------------------------------------------------------------
B|-----------------------3-----3-----------------------3-----3--------3--0--------0--
G|-----------------------0-----0-----------------------0-----0--------0--0--------0--
D|-----------------------------------------------------------------2-----------2-----
A|--------------------------------------------------------------3-----------3--------
E|--3--3--3--3--3--3--3-----3-----3--3--3--3--3--3--3-----3--------------------------



E|-----------------------------------------------------------------------------------
B|--------3--0--------3--------3--0--------3--0--------3--0--------3--0--------3--1--
G|--------0--0--------0--------0--0--------0--0--------0--0--------0--0--------0--0--
D|-----2-----------2--------2-----------2-----------2-----------2-----------2--------
A|--0-----------0--------3-----------3-----------0-----------0-----------3-----------
E|-----------------------------------------------------------------------------------



E|--------------------------------------------------------------------------------------
B|--------3--1--------3--0--------3--0--------3--0--------3--0--------3--0--------3--0--
G|--------0--0--------2--2--------2--2--------0--0--------0--0--------0--0--------0--0--
D|-----2-----------2-----------2-----------2-----------2-----------2-----------2--------
A|--3-----------0-----------0-----------3-----------3-----------0-----------0-----------
E|--------------------------------------------------------------------------------------



E|------------------------------
B|-------------0-------------3--
G|----------0-------------0-----
D|-----0h2-----------0h2--------
A|--3-------------3-------------
E|------------------------------



E|--------------------------------------------------------------------------------------
B|--------------------------------------------------------------------------------------
G|--0-----------0--------0-----------0--------0-----------0--------0-----------0--------
D|--------2-----------2--------0-----------0--------2-----------2--------2-----------2--
A|-----2-----------2--------2-----------2-----3--3-----3-----3-----3--3-----3-----3-----
E|--0--------0-----------3--------3-----------------------------------------------------



E|--------------------------------------------------------------------------------------
B|-----------------------------------------------------------------0--------------------
G|--0-----------0--------0-----------0--------0-----------0--------------------0--------
D|--------2-----------2--------0-----------0--------2-----------2--------2-----------2--
A|-----2-----------2--------2-----------2-----3--3-----3-----3-----3--3-----3-----3-----
E|--0--------0-----------3--------3-----------------------------------------------------



E|------------------------------------------------------------------------------------
B|--1-----------1--------------0-----------0-------------------------0-------------3--
G|--------0--------0-----0-----------2--------2-----2-------------0-------------0-----
D|-----2--------------2-----2-----2--------------2-----2-----0h2-----------0h2--------
A|--3--------3-----------------0--------0-----------------3-------------3-------------
E|------------------------------------------------------------------------------------



E|--------------------------------------------------------------------------------------------------
B|-----------3-----------5-----------7-----------7-----------3-----------5-----------7-----------7--
G|--------0-----------0-----------0-----------0-----------0-----------0-----------0-----------0-----
D|-----2-----------4-----------5-----------5-----------2-----------4-----------5-----------5--------
A|--3-----------5-----------7-----------7-----------3-----------5-----------7-----------7-----------
E|--------------------------------------------------------------------------------------------------



E|-----------------------------------------------------------------------------------0--
B|-----------1-----------0-----------3-----------3-----------1-----------0--------3-----
G|--------0-----------2-----------0-----------0-----------0-----------2--------0--------
D|-----2-----------2-----------2-----------2-----------2-----------2--------------------
A|--3-----------0-----------3-----------3-----------3-----------0-----------3-----------
E|--------------------------------------------------------------------------------------



E|-----------------------------------------------0-----
B|--1--0-----------1--0-----------1--0-----------------
G|-----------0--------------0--------------0-----------
D|--------2-----2--------2-----2--------2-----2--------
A|--3--3-----------3--3-----------3--3-----------3-----
E|-----------------------------------------------------
http://www.guitartabcreator.com
Guitar Tab Creator is intended to store guitar tab created through the tool. It currently does not support in-line text editing. Any text you place in here will be lost. If you need to comment on your tab, please use the "Tab Notes" section located below.