CALI DREAMIN BETTER

(/) Slide Up  (\) Slide Down  (h) Hammer On  (p) Pull Off  (b) Bend (r) Release (v) Vibrato


E|-------------------------------------------------------------------------------------------------
B|-------------------------------------------------------------9-----------------------------------
G|------9------------------------------9--------------------------11--9--11--9--8------9--9--9-----
D|--11-----11--9--11--11--9--9--7--11-----11--9------------------------------------11--------------
A|-----------------------------------------------11--12--11----------------------------------------
E|-------------------------------------------------------------------------------------------------



E|-------------------------------------------------------------------------------------------------
B|----------------------------------------------------------9--------------------------------------
G|--8----------------------------8----------8------------------11--9------9--9--9--8--8------9-----
D|----------------------------------11--11-----11--9--9--6------------11-----------------11--------
A|-----12--11----11--11--12--11--------------------------------------------------------------------
E|-------------------------------------------------------------------------------------------------



E|--------------------------12--11--9--11--9--9------------------9--11--9--11--16--17--16--
B|----------------9--10--9-----------------------12--12--10--12----------------------------
G|--11--9--11--9---------------------------------------------------------------------------
D|-----------------------------------------------------------------------------------------
A|-----------------------------------------------------------------------------------------
E|-----------------------------------------------------------------------------------------
http://www.guitartabcreator.com
Guitar Tab Creator is intended to store guitar tab created through the tool. It currently does not support in-line text editing. Any text you place in here will be lost. If you need to comment on your tab, please use the "Tab Notes" section located below.