solo

(/) Slide Up  (\) Slide Down  (h) Hammer On  (p) Pull Off  (b) Bend (r) Release (v) Vibrato


E|--------------------------------------------------------------------------------------
B|--------------------------------------------------------------------------------------
G|--------------------5--7--5--7b9--7b9--7b9--------------------5-----------------------
D|--------------5--7--------------------------7--5--7--7--5--7-----7--5--7--7--5--7-----
A|--------5--7-----------------------------------------------------------------------7--
E|--5--8--------------------------------------------------------------------------------



E|------------------------------------------------------------------------12--10------10----------
B|--------------------------------------------------------------------------------13------13--10--
G|-----------5--7b9--7b9--7--5-----5--------------------------------------------------------------
D|--7--5--7---------------------7-----7--5--7--5-----5--------------------------------------------
A|------------------------------------------------8-----8--5--8--5--------------------------------
E|------------------------------------------------------------------8--5--------------------------



E|----------------------------------------------------------------------------------------------
B|----------------------------------------------------------------------------------------------
G|--12--10--12b14--12b12b14--12b14--12b14--12b14--12b14--12b14--12v--10-------------------------
D|-----------------------------------------------------------------------12--12--10------10-----
A|-----------------------------------------------------------------------------------12---------
E|----------------------------------------------------------------------------------------------



E|-----------------------------
B|-----------------------------
G|-----------------------------
D|--12--12--10-----------------
A|--------------12-------------
E|------------------12--10--8--
http://www.guitartabcreator.com
Guitar Tab Creator is intended to store guitar tab created through the tool. It currently does not support in-line text editing. Any text you place in here will be lost. If you need to comment on your tab, please use the "Tab Notes" section located below.