wacky tappy

(/) Slide Up  (\) Slide Down  (h) Hammer On  (p) Pull Off  (b) Bend (r) Release (v) Vibrato


E|----------------------------------------------------------------------------------------------------
B|----------------------------------------------------------------------------------------------------
G|--------14------------14------------14------------14------------16------------16------------16------
D|-----7-------------7-------------7-------------7-------------9-------------9-------------9----------
A|------------12------------12------------12------------12------------14------------14------------14--
E|--5-------------5-------------5-------------5-------------7-------------7-------------7-------------



E|----------------
B|----------------
G|--------16------
D|-----9----------
A|------------14--
E|--7-------------
http://www.guitartabcreator.com
Guitar Tab Creator is intended to store guitar tab created through the tool. It currently does not support in-line text editing. Any text you place in here will be lost. If you need to comment on your tab, please use the "Tab Notes" section located below.