poop

(/) Slide Up  (\) Slide Down  (h) Hammer On  (p) Pull Off  (b) Bend (r) Release (v) Vibrato
E|------------------------------------------------------------------------------------------
B|------------------------------------------------------------------------------------------
G|--15---------14---------15---------17---------15---------14---------15---------19---------
D|------15---------14---------15---------17---------15---------14---------15---------19-----
A|----------0----------0----------0----------0----------0----------0----------0----------0--
E|------------------------------------------------------------------------------------------



E|------------------------------------------
B|------------------------------------------
G|------------------------------------------
D|------------------------------------------
A|--0--0--2/5--3--3--3/7--5--5--5--5--3--2--
E|------------------------------------------



E|------------------------------------------------------------
B|------------------------------------------------------------
G|------------------------------------------------------------
D|------------------------------------------------------------
A|--0--0--2/5--3--3--3/7--5--5--5--5--7--5--3--5--3--2--3--2--
E|------------------------------------------------------------



E|---------------------------------------------
B|---------------------------------------------
G|---------------------------------------------
D|---------------------------------------------
A|--0--0--2/5--3--3--3/7--5--5--5--7--5--3--2--
E|---------------------------------------------



E|------------------------------------------------------
B|------------------------------------------------------
G|---------------------------------7--7--7--5--4--3--2--
D|------------------------------------------------------
A|--0--0--2/5--3--3--3/7--5--5--5-----------------------
E|------------------------------------------------------



E|--------
B|--------
G|--------
D|--------
A|--0--0--
E|--------



E|--------------------------------------------------------
B|--------------------------------------------------------
G|-----------------------------------------------0--1--2--
D|-----------------0--1--2--------------0--1--2-----------
A|--0--0--0--1--2-----------0--0--1--2--------------------
E|--------------------------------------------------------



E|----------------------------------------------------------------------------------
B|----------------------------------------------------------------------------------
G|-----------------------------------------2--1--0--1--0----------------------------
D|-----------------0--1--2--------------------------------2--1h2--1--0-----0--0-----
A|--0--0--0--1--2-----------0--0--0--1--2-------------------------------2--------0--
E|----------------------------------------------------------------------------------



E|--------------------------------------------------------------------------------------------------
B|--------------------------------------------------------------------------------------------------
G|--------------------------------------------------------------------------------------------------
D|--------7-----------7-----------6-----------6-----------5-----------5-----------4-----------4-----
A|--------------------------------------------------------------------------------------------------
E|--5--5-----5--5--5-----5--4--4-----4--4--4-----4--3--3-----3--3--3-----3--2--2-----2--2--2-----2--
http://www.guitartabcreator.com
Guitar Tab Creator is intended to store guitar tab created through the tool. It currently does not support in-line text editing. Any text you place in here will be lost. If you need to comment on your tab, please use the "Tab Notes" section located below.