lame o shame o tapping that sounds like a weather network

(/) Slide Up  (\) Slide Down  (h) Hammer On  (p) Pull Off  (b) Bend (r) Release (v) Vibrato


E|------------------------------------------------------------
B|------------------------------------------------------------
G|------17---------19p17-------------17---------19p17---------
D|--15------19p15---------19p15--15------19p15---------19p15--
A|------------------------------------------------------------
E|------------------------------------------------------------



E|------------------------------------------------------------
B|------------------------------------------------------------
G|------------------------------------------------------------
D|------15---------17p15--19p15------15-----------------------
A|--13------17p13----------------13------17p13--17p13--15p13--
E|------------------------------------------------------------
http://www.guitartabcreator.com
Guitar Tab Creator is intended to store guitar tab created through the tool. It currently does not support in-line text editing. Any text you place in here will be lost. If you need to comment on your tab, please use the "Tab Notes" section located below.