gggg

(/) Slide Up  (\) Slide Down  (h) Hammer On  (p) Pull Off  (b) Bend (r) Release (v) Vibrato

E|-------------------------------------------------
B|-------------------------------------------------
G|--6----------------------------------------------
D|--4-----4----------------------------------------
A|-----4--2--6----6----6----6----6----6----6----6--
E|-----2-----4----4----4----4----4----4----4----4--



E|--------------------------------------------
B|--------------------------------------------
G|--------------------------------------------
D|--------------------------------------------
A|--------------------------------------14----
E|--------------------------------------12\---



E|--------------------------------------------------------------------------
B|--------------------------------------------------------------------------
G|--6--------------------------------4/6------------------------------------
D|--4-----4--------------------------2-4-----4/6----------------------------
A|-----4--2--6--6--6--6--6--6--6--6-------4--2-4--6----6--6--6--6--6--6--6--
E|-----2-----4--4--4--4--4--4--4--4-------2-------4----4--4--4--4--4--4--4--
http://www.guitartabcreator.com
Guitar Tab Creator is intended to store guitar tab created through the tool. It currently does not support in-line text editing. Any text you place in here will be lost. If you need to comment on your tab, please use the "Tab Notes" section located below.