dadla dalda dah

(/) Slide Up  (\) Slide Down  (h) Hammer On  (p) Pull Off  (b) Bend (r) Release (v) Vibrato

E|-----------------------------------------------
B|-----------------------------------------------
G|-----------------------------------------------
D|-----9-----------5-----------7-----------------
A|--7-----7-----5-----5--------------------7-----
E|-----------7-----------5--5-----5--7--9-----9--



E|-------------------------------------------------
B|-------------------------------------------------
G|-------------------------------------------------
D|-----9-----------5-----------7p5-----------2--0--
A|--7-----7-----5-----5----------------------------
E|-----------7-----------5--5-------5--3--0--------



E|---------------------------------------------------
B|---------------------------------------------------
G|---------------------------------------------------
D|-----9-----------5-----------5/7--------9----------
A|--7-----7-----5-----5----------------------9p7-----
E|-----------7-----------5--5-------5--7----------9--



E|-----------------------------------------------
B|-----------------------------------------------
G|-----------------------------------------------
D|-----9-----------5-----------7-----------------
A|--7-----7-----5-----5--------------------------
E|-----------7-----------5--5-----5--5--3--2--0--
http://www.guitartabcreator.com
Guitar Tab Creator is intended to store guitar tab created through the tool. It currently does not support in-line text editing. Any text you place in here will be lost. If you need to comment on your tab, please use the "Tab Notes" section located below.