Uncle John's Band

(/) Slide Up  (\) Slide Down  (h) Hammer On  (p) Pull Off  (b) Bend (r) Release (v) Vibrato

Stave 1:

E|---------7--8--10------8--7--8------7------7----------------------------------------
B|--8--10--------------------------------10-----10--8--10--8--7-----------------------
G|---------------------------------------------------------------9--7-----------------
D|------------------------------------------------------------------------------------
A|------------------------------------------------------------------------------------
E|------------------------------------------------------------------------------------

Stave 2:

E|--------------------15--14--12--14--12--14--12--------------------------------
B|--8p7--7----------------------------------------15----13--13--13--12--13--15--
G|----------9--7----------------------------------------------------------------
D|------------------------------------------------------------------------------
A|------------------------------------------------------------------------------
E|------------------------------------------------------------------------------

Stave 3:

E|----------------------------------------------------------------------
B|--12--13--15--12--10--12--------------10----------12--10--10--13--12--
G|--------------------------11------11------12--12----------------------
D|------------------------------12--------------------------------------
A|----------------------------------------------------------------------
E|----------------------------------------------------------------------

Stave 4:

E|--12--10------10------------------------------------------------15p14p12--
B|----------13------13--12--10------------10--12--10--12--------------------
G|------------------------------12----12------------------------------------
D|--------------------------------------------------------12----------------
A|--------------------------------------------------------------------------
E|--------------------------------------------------------------------------

Stave 5:

E|--15\17--15--15----14--14--15--17----12--14--15--------12----------12--
B|---------------------------------------------------15------12--15------
G|-----------------------------------------------------------------------
D|-----------------------------------------------------------------------
A|-----------------------------------------------------------------------
E|-----------------------------------------------------------------------

Stave 6:

E|------------------------------------------------------------------------
B|--12--10--------------7--10--8----8--7--7-----7-------------------------
G|----------12--11p9\7-----------------------9-----9--7----7--7--7--5--5--
D|------------------------------------------------------------------------
A|------------------------------------------------------------------------
E|------------------------------------------------------------------------

Stave 7:

E|-------------------------------------------------------------------------------
B|----------------------------------------------------------------------6--------
G|--4--4----------------------4--7----5p4--5--4----------------4--5--7-----7--7--
D|--------7--7-------4--7--5---------------------5--7----5--7--------------------
A|----------------5--------------------------------------------------------------
E|-------------------------------------------------------------------------------

Stave 8:

E|--15----14----14--12----14------------12----------------------
B|----------------------------15----15------13----12------12----
G|----------------------------------------------------14--------
D|--------------------------------------------------------------
A|--------------------------------------------------------------
E|--------------------------------------------------------------

http://www.guitartabcreator.com
Guitar Tab Creator is intended to store guitar tab created through the tool. It currently does not support in-line text editing. Any text you place in here will be lost. If you need to comment on your tab, please use the "Tab Notes" section located below.