Untitled

(/) Slide Up  (\) Slide Down  (h) Hammer On  (p) Pull Off  (b) Bend (r) Release (v) Vibrato

E|-----------------------------------
B|-----------------------------------
G|-------0--0h2--4--2--0-------0--4--
D|--2p0-------------------0h2-----6--
A|-----------------------------------
E|-----------------------------------



E|-----------------------------------
B|-----------------------------------
G|-------0--0h2--4--2--0-------0--2--
D|--2p0-------------------0h2-----4--
A|-----------------------------------
E|-----------------------------------
http://www.guitartabcreator.com
Guitar Tab Creator is intended to store guitar tab created through the tool. It currently does not support in-line text editing. Any text you place in here will be lost. If you need to comment on your tab, please use the "Tab Notes" section located below.