Sunday Morning - Tab Chords

(/) Slide Up  (\) Slide Down  (h) Hammer On  (p) Pull Off  (b) Bend (r) Release (v) Vibrato

E|--------5--
B|--5--7--5--
G|--7--6--5--
D|--5--7--5--
A|--6--6--5--
E|--5-----5--



E|--------5--5--4--3-----1--0--5--
B|--5--7--5--5--4--3--3-----7--5--
G|--7--6--5--5--4--3--5--2--6--5--
D|--5--7--5--5--4--3--3--2--7--5--
A|--6--6--5--5--4--3--3--1--6--5--
E|--5-----5-----------------x--5--



E|--x--3-----
B|--5--3--3--
G|--7--5--5--
D|--5--4--4--
A|--6--3--5--
E|--5--3--3--



E|-----3-----1--0--5--
B|--5--3--3-----7--5--
G|--7--5--5--2--6--5--
D|--5--4--4--2--7--5--
A|--6--3--5--1--6--5--
E|--5--3--3-----------
http://www.guitartabcreator.com
Guitar Tab Creator is intended to store guitar tab created through the tool. It currently does not support in-line text editing. Any text you place in here will be lost. If you need to comment on your tab, please use the "Tab Notes" section located below.