Slavonic Dance

(/) Slide Up  (\) Slide Down  (h) Hammer On  (p) Pull Off  (b) Bend (r) Release (v) Vibrato


E|--0-----1-----3--------------------0-----------
B|--------------------0-----1--0--1--------------
G|-----------------------------------------2-----
D|-----------------------------------------------
A|-----0-----0--------------------------0-----0--
E|-----------------0-----0-----------------------



E|--1--------0--1-----3--1--0-----0--1--0-----
B|--------1--------------------3--------------
G|--------------------------------------------
D|-----0-----------0--------------------------
A|--------------------------------------------
E|-----------------------------------------0--
-
G|--------------------
D|--------------------
A|-----0-----0--------
E|--------------------
http://www.guitartabcreator.com
Guitar Tab Creator is intended to store guitar tab created through the tool. It currently does not support in-line text editing. Any text you place in here will be lost. If you need to comment on your tab, please use the "Tab Notes" section located below.