Trey (:

(/) Slide Up  (\) Slide Down  (h) Hammer On  (p) Pull Off  (b) Bend (r) Release (v) Vibrato


E|----------------------------------------------------------------------------------------------
B|--12-------------12----------10----------------10----------------8---------------8------------
G|---------0---------------0-------------0-------------------0--------------0---------------0---
D|------0------0-------0-------------0------0-----------0---------------0-------0-------0-------
A|--10--------------------------9----------------------------------7----------------------------
E|----------------------------------------------------------------------------------------------

E|-----------------------------------------------------------------------------------------------
B|--10----------------10------------12----------------12--------------10----------------10-------
G|-----------0-----------------0--------------0----------------0---------------0---------------0-
D|-------0-------0---------0--------------0-------0---------0--------------0-------0--------0----
A|--9-------------------------------10--------------------------------9--------------------------
E|-----------------------------------------------------------------------------------------------

E|-------------------------------------------------------------------
B|--7--------------7------------10-----------------10----------------
G|----------0--------------0--------------0------------------0-------
D|------0------0-------0--------------0-------0---------0------------
A|--8----------------------------9-----------------------------------
E|-------------------------------------------------------------------

E|----------------------------------------------------------------------------------------------
B|--15----------------15-----------15----------------15---------------15---------------15-------
G|-----------0-----------------0-------------0------------------0---------------0-------------0-
D|-------0-------0---------0-------------0-------0----------0---------------0-------0-------0---
A|--14-----------------------------15---------------------------------14------------------------
E|----------------------------------------------------------------------------------------------

E|-----------------------------
B|---15-------------15---------
G|-----------0--------------0--
D|-------0------0--------0-----
A|--15-------------------------
E|-----------------------------

E|----------------------------------------------------------------------------------------------
B|--12-------------12----------10----------------10----------------8---------------8------------
G|---------0---------------0-------------0-------------------0--------------0---------------0---
D|------0------0-------0-------------0------0-----------0---------------0-------0-------0-------
A|--10--------------------------9----------------------------------7----------------------------
E|----------------------------------------------------------------------------------------------

E|---------------------------------
B|--10-----------------10----------
G|-----------0------------------0--
D|-------0-------0----------0------
A|--9------------------------------
E|---------------------------------

E|----------------------------------------------------------------------------------
B|--13-----------13--------12--------------12------------13--------------13---------
G|---------0-----------0-----------0----------------0------------0---------------0--
D|------0----0------0----------0-------0--------0-------------0------0-------0------
A|--12---------------------10----------------------------12-------------------------
E|----------------------------------------------------------------------------------

E|---------------------------------------------------------------------------------------
B|--12-------------12------------13--------------13------------15------------15----------
G|----------0---------------0-------------0---------------0------------0-------------0---
D|-------0-----0--------0-------------0------0--------0-------------0-----0-------0------
A|--10---------------------------12----------------------------14------------------------
E|---------------------------------------------------------------------------------------

E|-----------------------------------------------------
B|--17------------17-----------20-----17----15----13---
G|---------0-------------0-----------------------------
D|------0-----0-------0--------------------------------
A|--16-------------------------19-----16----14----12---
E|-----------------------------------------------------

E|----------------------------------------------------------------------------------------------
B|--12-------------12----------10----------------10----------------8---------------8------------
G|---------0---------------0-------------0-------------------0--------------0---------------0---
D|------0------0-------0-------------0------0-----------0---------------0-------0-------0-------
A|--10--------------------------9----------------------------------7----------------------------
E|----------------------------------------------------------------------------------------------

E|-----------------------------------------------------------------------------------------------
B|--10----------------10------------12----------------12--------------10----------------10-------
G|-----------0-----------------0--------------0----------------0---------------0---------------0-
D|-------0-------0---------0--------------0-------0---------0--------------0-------0--------0----
A|--9-------------------------------10--------------------------------9--------------------------
E|-----------------------------------------------------------------------------------------------

E|----------------------------------------------------------------------------
B|--7--------------7------------10-----------------10----------------8----8---
G|----------0--------------0--------------0-----------------------------------
D|------0------0-------0--------------0-------0---------0---------------------
A|--8----------------------------9-----------------------------------10---10--
E|----------------------------------------------------------------------------
http://www.guitartabcreator.com
Guitar Tab Creator is intended to store guitar tab created through the tool. It currently does not support in-line text editing. Any text you place in here will be lost. If you need to comment on your tab, please use the "Tab Notes" section located below.