Romanza Part 2

(/) Slide Up  (\) Slide Down  (h) Hammer On  (p) Pull Off  (b) Bend (r) Release (v) Vibrato
E|-4-----4-----4-----|-4-----2-----0-----|-------------------|-------------------|-
B|---0-----0-----0---|---0-----0-----0---|-5-----4-----4-----|-4-----3-----4-----|-
G|-----1-----1-----1-|-----1-----1-----1-|---2-----2-----2---|---2-----2-----2---|-
D|-------------------|-------------------|-----4-----4-----4-|-----4-----4-----4-|-
A|-------------------|-------------------|-0-----------------|-0-----------------|-
E|-0-----------------|-0-----------------|-------------------|-------------------|-



E|-7-----7-----7-----|-7-----9-----7-----|-9-----7-----7-----|-7-----9-----11-----|-
B|---7-----7-----7---|---7-----7-----7---|---9-----9-----9---|---9-----9------9---|-
G|-----8-----8-----8-|-----8-----8-----8-|-----9-----9-----9-|-----9-----9------9-|-
D|-------------------|-------------------|-------------------|--------------------|-
A|-7-----------------|-7-----------------|-------------------|--------------------|-
E|-------------------|-------------------|-0-----------------|-0------------------|-



E|-12-----12-----12-----|-12-----11-----10-----|-9-----9-----9-----|-9-----7-----5-----|---
B|----9------9------9---|----9------9------9---|---5-----5-----5---|---5-----5-----5---|---
G|------9------9------9-|------9------9------9-|-----6-----6-----6-|-----6-----6-----6-|---
D|----------------------|----------------------|-------------------|-------------------|---
A|----------------------|----------------------|-0-----------------|-0-----------------|---
E|-0--------------------|-0--------------------|-------------------|-------------------|---



E|--4--------4--------4--------|--4--------5--------2--------|--0--------0--------0--------|--0--------|--0--2--|--
B|-----0--------0--------0-----|-----0--------4--------4-----|-----0--------0--------0-----|-----0--0--|--------|--
G|--------1--------1--------1--|--------1--------2--------2--|--------1--------1--------1--|-----------|--------|--
D|-----------------------------|-----------------------------|-----------------------------|-----------|--------|--
A|-----------------------------|-----------------------------|-----------------------------|-----------|--------|--
E|-----------------------------|-----------------------------|-----------------------------|-----------|--------|--
http://www.guitartabcreator.com
Guitar Tab Creator is intended to store guitar tab created through the tool. It currently does not support in-line text editing. Any text you place in here will be lost. If you need to comment on your tab, please use the "Tab Notes" section located below.