Romanza

(/) Slide Up  (\) Slide Down  (h) Hammer On  (p) Pull Off  (b) Bend (r) Release (v) Vibrato


E|-7-----7-----7-----|-7-----5-----3-----|-3-----2-----0-----|-
B|---0-----0-----0---|---0-----0-----0---|---0-----0-----0---|-
G|-----0-----0-----0-|-----0-----0-----0-|-----0-----0-----0-|-
D|-------------------|-------------------|-------------------|-
A|-------------------|-------------------|-------------------|-
E|-------------------|-------------------|-------------------|-



E|-0-----3-----7-----|-12-----12-----12-----|-12-----10-----8-----|-8-----7-----5-----|-
B|---0-----0-----0---|----0------0------0---|----0------0-----0---|---5-----5-----5---|-
G|-----0-----0-----0-|------0------0------0-|------0------0-----0-|-----5-----5-----5-|-
D|-------------------|----------------------|---------------------|-------------------|-
A|-------------------|----------------------|---------------------|-------------------|-
E|-------------------|----------------------|---------------------|-------------------|-



E|-5-----7-----8-----|-7-----8-----7-----|-11-----8-----7-----|-7-----5-----3-----|-
B|---5-----5-----5---|---7-----7-----7---|----7-----7-----7---|---0-----0-----0---|-
G|-----5-----5-----5-|-----8-----8-----8-|------8-----8-----8-|-----0-----0-----0-|-
D|-------------------|-------------------|--------------------|-------------------|-
A|-------------------|-------------------|--------------------|-------------------|-
E|-------------------|-------------------|--------------------|-------------------|-



E|-3-----2-----0-----|-2-----2-----2-----|-2-----3-----2-----|-0-----0-----|-0-|-
B|---0-----0-----0---|---0-----0-----0---|---0-----0-----0---|---0-----0---|---|-
G|-----0-----0-----0-|-----2-----2-----2-|-----2-----2-----2-|-----0-----0-|---|-
D|-------------------|-------------------|-------------------|-------------|---|-
A|-------------------|-------------------|-------------------|-------------|---|-
E|-------------------|-------------------|-------------------|-------------|---|-

http://www.guitartabcreator.com
Guitar Tab Creator is intended to store guitar tab created through the tool. It currently does not support in-line text editing. Any text you place in here will be lost. If you need to comment on your tab, please use the "Tab Notes" section located below.