new riff

(/) Slide Up  (\) Slide Down  (h) Hammer On  (p) Pull Off  (b) Bend (r) Release (v) Vibrato


E|-----------
B|--0-----2--
G|-----------
D|-----1-----
A|-----------
E|-----------



E|-----------2--
B|--0-----2-----
G|--------------
D|-----1--------
A|--------------
E|--------------



E|-----------
B|--0-----2--
G|-----------
D|-----1-----
A|-----------
E|-----------



E|-----0-----0--0--0-----
B|--0--------------------
G|-----------------------
D|--------0-----------1--
A|-----------------------
E|-----------------------



E|--------
B|--0-----
G|--------
D|-----1--
A|--------
E|--------
http://www.guitartabcreator.com
Guitar Tab Creator is intended to store guitar tab created through the tool. It currently does not support in-line text editing. Any text you place in here will be lost. If you need to comment on your tab, please use the "Tab Notes" section located below.