p

(/) Slide Up  (\) Slide Down  (h) Hammer On  (p) Pull Off  (b) Bend (r) Release (v) Vibrato


E|--------------------------------------------------------
B|--------------------------------------------------------
G|--------------------------------------------------------
D|-----2--------3--------0--------2--------3--------0-----
A|--0-----0--3-----3--1-----1--0-----0--3-----3--1-----1--
E|--------------------------------------------------------



E|-------------------------------------------------------------------------
B|-------------------------------------------------------------------------
G|------16----------17----------14----------16----------17----------14-----
D|--14------14--17------17--15------15--14------14--17------17--15------15p
A|-------------------------------------------------------------------------
E|-------------------------------------------------------------------------
http://www.guitartabcreator.com
Guitar Tab Creator is intended to store guitar tab created through the tool. It currently does not support in-line text editing. Any text you place in here will be lost. If you need to comment on your tab, please use the "Tab Notes" section located below.