Lavender Town Theme

(/) Slide Up  (\) Slide Down  (h) Hammer On  (p) Pull Off  (b) Bend (r) Release (v) Vibrato
E|--------------7--7--------------------7--7--------------------7--7--------------------7--7--------
B|--------8--8--------7--7--------8--8--------7--7--------8--8--------7--7--------8--8--------7--7--
G|--5--5--------------------5--5--------------------5--5--------------------5--5--------------------
D|--------------------------------------------------------------------------------------------------
A|--------------------------------------------------------------------------------------------------
E|--------------------------------------------------------------------------------------------------



E|---------------------------------------------------
B|-----6--8--8--5--5--6--7--6--5--12--------------6--
G|--9---------------------------------6--6--7--9-----
D|---------------------------------------------------
A|---------------------------------------------------
E|---------------------------------------------------
http://www.guitartabcreator.com
Guitar Tab Creator is intended to store guitar tab created through the tool. It currently does not support in-line text editing. Any text you place in here will be lost. If you need to comment on your tab, please use the "Tab Notes" section located below.