tabby

(/) Slide Up  (\) Slide Down  (h) Hammer On  (p) Pull Off  (b) Bend (r) Release (v) Vibrato
E|-----------------------------------------------
B|-----------------------------------------------
G|-----------------------------------------------
D|-----------5-----------------------------------
A|--------7--------------7--------7--8--7--5--2--
E|--0--0--------0--0--5-----0--0-----6--5--3--0--



E|------------------------------------------------
B|------------------------------------------------
G|------------------------------------------------
D|-----------5------------------------------------
A|--------7--------------7--------7--10--9--7--5--
E|--0--0--------0--0--5-----0--0-----8---7--5--3--



E|---------------------------------------------------
B|---------------------------------------------------
G|---------------------------------------------------
D|--------11--9--11--11--10--9-----9--7--9--9--8--9--
A|--9--9---------11--11--10--9--7--------9--9--8--9--
E|--9--9------------------------7-----------------9--



E|--8--7------8--7------------10--8--7---------------
B|--------10--------10--8--7------------10--8--7-----
G|------------------------------------------------9--
D|---------------------------------------------------
A|---------------------------------------------------
E|---------------------------------------------------
http://www.guitartabcreator.com
Guitar Tab Creator is intended to store guitar tab created through the tool. It currently does not support in-line text editing. Any text you place in here will be lost. If you need to comment on your tab, please use the "Tab Notes" section located below.