tabbius

(/) Slide Up  (\) Slide Down  (h) Hammer On  (p) Pull Off  (b) Bend (r) Release (v) Vibrato
E|--------------------------------------------------
B|--------------------------------------------------
G|--------------------------------------------------
D|-----------5-----------------------5--------------
A|--------7--------------7--------7-----------------
E|--0--0--------0--0--5-----0--0--------0--0--5--6--



E|--------------------------------------------------
B|--------------------------------------------------
G|-----------2--------------------4--2--------------
D|--------4-----------------------------------------
A|--------------4--4--3--2--------------3--3--2--0--
E|--2--2--------------------2--2--------------------



E|--------------------------
B|--------------------------
G|--------------------------
D|--------5-----8--8--7--5--
A|-----------7--------------
E|--0--0--------------------



E|--------------------------4--3-----4--3-----------6--4--3--------------
B|-----------------------2--------6--------6--4--3-----------6--4--3-----
G|--------2--------------2--------------------------------------------5--
D|-----------4--5--5--4--2-----------------------------------------------
A|--------------3--3--2--------------------------------------------------
E|--2--2-----------------------------------------------------------------
http://www.guitartabcreator.com
Guitar Tab Creator is intended to store guitar tab created through the tool. It currently does not support in-line text editing. Any text you place in here will be lost. If you need to comment on your tab, please use the "Tab Notes" section located below.