Black Paper Moon V1

(/) Slide Up  (\) Slide Down  (h) Hammer On  (p) Pull Off  (b) Bend (r) Release (v) Vibrato


E|-------------------------------------------------------
B|--------6-----4--3--1--3--1----------6-----4--3--1-----
G|--3--3-----3-------------------3--3-----3-----------2--
D|-------------------------------------------------------
A|-------------------------------------------------------
E|-------------------------------------------------------



E|-------------------------------------------------------------------------------
B|--6--6-------------------------------------------------------------------------
G|--------3--3--3-----3--5--8--7--7--5--3--2--3--2-----3----2--3--5--7--8--7--2--
D|-----------------5--------------------------------5----------------------------
A|-------------------------------------------------------------------------------
E|-------------------------------------------------------------------------------



E|---------------------------------------------------------------------------------------
B|--6--6------------------------------------------------------6--6-----------------------
G|--------3--3----3-----3--5--8--7--7----5--3--2--3--2-----3--------7--8--7--5--8--7--7--
D|-------------------5----------------------------------5--------------------------------
A|---------------------------------------------------------------------------------------
E|---------------------------------------------------------------------------------------



E|----------------------------
B|----------------------------
G|--10--10--8--7--8--7-----7--
D|----------------------8-----
A|----------------------------
E|----------------------------



E|-------------------------------------
B|--11--10--8--11--11--10--10--11--10--
G|-------------------------------------
D|-------------------------------------
A|-------------------------------------
E|-------------------------------------



E|------------------------------------------------------------
B|--10--11--10--11--13--11--10--8------------8----------------
G|---------------------------------10----10-----10--8--10--7--
D|------------------------------------------------------------
A|------------------------------------------------------------
E|------------------------------------------------------------



E|---------------------------------------------------------------------------------
B|--------8--------------------------10--11--10--11--13--11--10--8------11--10-----
G|--7--8-----10--8--7----7--8--7--5---------------------------------10-------------
D|---------------------------------------------------------------------------------
A|---------------------------------------------------------------------------------
E|---------------------------------------------------------------------------------



E|------------------------------------------
B|--10--10--8--11----11--13--11--10--11--8--
G|------------------------------------------
D|------------------------------------------
A|------------------------------------------
E|------------------------------------------



E|-----------------------------------------------------------------------------------
B|--8--11--8-------------------------------------------------------------------------
G|------------10--8--7--5--7--11----11--11--10--8--10----5--7--12----7--5--3--5--12--
D|-----------------------------------------------------------------------------------
A|-----------------------------------------------------------------------------------
E|-----------------------------------------------------------------------------------
http://www.guitartabcreator.com
Guitar Tab Creator is intended to store guitar tab created through the tool. It currently does not support in-line text editing. Any text you place in here will be lost. If you need to comment on your tab, please use the "Tab Notes" section located below.