my song

(/) Slide Up  (\) Slide Down  (h) Hammer On  (p) Pull Off  (b) Bend (r) Release (v) Vibrato


E|-----------------------------------------------------------------2-2-2-2-2-2-2-2-------------------
B|-----------------2-2-2-2-2-2-2-2---------------------------------2-2-2-2-2-2-2-2-------------------
G|-----------------2-2-2-2-2-2-2-2-----------------2-2-2-2-2-2-2-2-----------------3-3-3-3-3-3-3-3-3-
D|-2-2-2-2-2-2-2-2---------------------------------2-2-2-2-2-2-2-2-----------------3-3-3-3-3-3-3-3-3-
A|-2-2-2-2-2-2-2-2-----------------2-2-2-2-2-2-2-2---------------------------------------------------
E|---------------------------------2-2-2-2-2-2-2-2---------------------------------------------------



E|-----------------4-4-4-4-4-4-4-4---------------------------------
B|-----------------4-4-4-4-4-4-4-4-----------------8-8-8-8-8-8-8-8-
G|-------------------------------------------------8-8-8-8-8-8-8-8-
D|---------------------------------8-8-8-8-8-8-8-8-----------------
A|-4-4-4-4-4-4-4-4-----------------8-8-8-8-8-8-8-8-----------------
E|-4-4-4-4-4-4-4-4-------------------------------------------------
http://www.guitartabcreator.com
Guitar Tab Creator is intended to store guitar tab created through the tool. It currently does not support in-line text editing. Any text you place in here will be lost. If you need to comment on your tab, please use the "Tab Notes" section located below.