As the World Burns

(/) Slide Up  (\) Slide Down  (h) Hammer On  (p) Pull Off  (b) Bend (r) Release (v) Vibrato


E|--------------------------------------------------------------------------------------------------
B|--------------------------------------------------------------------------------------------------
G|--------------------------------------------------------------------------------------------------
D|--------------------------------------------------------------------------------------------------
A|--4--5--4--5--4--5--4--5--------------------------4--5--4--5--4--5--4--5--------------------------
E|--------------------------4--5--4--5--4--5--4--5--------------------------4--5--4--5--4--5--4--5--



E|-----------------------------------------------------------------------------
B|-----------------------------------------------------------------------------
G|-----------------------------------------------------------------------------
D|-----------------------------------------------------------------------------
A|-----------------------------------------------------------------------------
E|--7--8--9--10--11--12--7--8--9--10--11--7--8--9--10--9--7--8--9--10--11--12--



E|-----------------------------------------------------------------------------------------------
B|-----------------------------------------------------------------------------------------------
G|-----------------------------------------------------------------------------------------------
D|-----------------------------------------------------------------------------------------------
A|-----------------------------------------------------------------------------------------------
E|--7--8--9--10--11--7--8--9--10--9--0--0----0--0----0--0--0----0--0----0--0----0--0--0----0--0--



E|-----------------------------
B|-----------------------------
G|-----------------------8--7--
D|--------8--7--6-----7--------
A|-----7-----------6-----------
E|--6--------------------------
http://www.guitartabcreator.com
Guitar Tab Creator is intended to store guitar tab created through the tool. It currently does not support in-line text editing. Any text you place in here will be lost. If you need to comment on your tab, please use the "Tab Notes" section located below.