Approaching Death

(/) Slide Up  (\) Slide Down  (h) Hammer On  (p) Pull Off  (b) Bend (r) Release (v) Vibrato
E|----------------------------------------------------
B|--7----------------------------7--------------------
G|-----9--8-------------------------9--8--5v--\3v-----
D|----------------------------------------------------
A|----------------------------------------------------
E|----------------------------------------------------



E|-----------------------------------------------
B|--7----------------------------7---------------
G|--9--9---8---------------------9--9---8---5-3--
D|-----11--10-----------------------11--10--7\5--
A|-----------------------------------------------
E|-----------------------------------------------



E|--0----0--0-----0----0--0-----0----0--0---------------
B|-------------7-------------7-------------7--4-5----1--
G|-------------9-------------9-------------9--6\7----3--
D|------------------------------------------------------
A|------------------------------------------------------
E|------------------------------------------------------



E|---0--------0--------0--------------------
B|-------7v-------7v-------7v---\5v---\1v---
G|------------------------------------------
D|------------------------------------------
A|------------------------------------------
E|------------------------------------------



E|--
B|--
G|--
D|--
A|--
E|--
http://www.guitartabcreator.com
Guitar Tab Creator is intended to store guitar tab created through the tool. It currently does not support in-line text editing. Any text you place in here will be lost. If you need to comment on your tab, please use the "Tab Notes" section located below.